999
FreeCAD v0.21 33668 +26 (Git)
  0
SECTION
  2
HEADER
  9
$ACADVER
  1
AC1014
  9
$ACADMAINTVER
 70
     9
  9
$DWGCODEPAGE
  3
ANSI_1252
  9
$TEXTSTYLE
  7
STANDARD
  9
$DIMSTYLE
  2
STANDARD
  9
$DIMTXSTY
  7
STANDARD
  9
$CMLSTYLE
  2
STANDARD
  9
$LUNITS
 70
2
  9
$INSUNITS
 70
4
  9
$PEXTMAX
 10
50
 20
50
 30
50
  9
$PEXTMIN
 10
0
 20
0
 30
0
  9
$HANDSEED
  5
FFFF
  0
ENDSEC
  0
SECTION
  2
CLASSES
  0
CLASS
  1
ACDBDICTIONARYWDFLT
  2
AcDbDictionaryWithDefault
  3
ObjectDBX Classes
 90
        0
280
     0
281
     0
  0
CLASS
  1
XRECORD
  2
AcDbXrecord
  3
ObjectDBX Classes
 90
        0
280
     0
281
     0
  0
CLASS
  1
LWPOLYLINE
  2
AcDbPolyline
  3
ObjectDBX Classes
 90
        0
280
     0
281
     1
  0
ENDSEC
  0
SECTION
  2
TABLES
  0
TABLE
  2
VPORT
  5
20
330
0
100
AcDbSymbolTable
 70
     1
  0
VPORT
  5
21
330
20
100
AcDbSymbolTableRecord
100
AcDbViewportTableRecord
  2
*ACTIVE
 70
     0
  0
ENDTAB
  0
TABLE
  2
LTYPE
  5
22
330
0
100
AcDbSymbolTable
 70
     1
  0
LTYPE
  5
23
330
21
100
AcDbSymbolTableRecord
100
AcDbLinetypeTableRecord
  2
BYBLOCK
 70
     0
  3

 72
    65
 73
     0
 40
0.0
  0
LTYPE
  5
24
330
21
100
AcDbSymbolTableRecord
100
AcDbLinetypeTableRecord
  2
BYLAYER
 70
     0
  3

 72
    65
 73
     0
 40
0.0
  0
LTYPE
  5
25
330
21
100
AcDbSymbolTableRecord
100
AcDbLinetypeTableRecord
  2
CONTINUOUS
 70
     0
  3
Solid line
 72
    65
 73
     0
 40
0.0
  0
ENDTAB
  0
TABLE
  2
LAYER
  5
ADA
330
0
100
AcDbSymbolTable
 70
212
  0
LAYER
  5
ADB
330
ADA
100
AcDbSymbolTableRecord
100
AcDbLayerTableRecord
  2
0
 70
   0
 62
   7
  6
CONTINUOUS
  0
LAYER
  5
ADC
330
ADA
100
AcDbSymbolTableRecord
100
AcDbLayerTableRecord
  2
none
 70
    0
 62
    7
  6
CONTINUOUS
  0
LAYER
  5
ADD
330
ADA
100
AcDbSymbolTableRecord
100
AcDbLayerTableRecord
  2
Shape
 70
    0
 62
    7
  6
CONTINUOUS
  0
LAYER
  5
ADE
330
ADA
100
AcDbSymbolTableRecord
100
AcDbLayerTableRecord
  2
Shape001
 70
    0
 62
    7
  6
CONTINUOUS
  0
LAYER
  5
ADF
330
ADA
100
AcDbSymbolTableRecord
100
AcDbLayerTableRecord
  2
Shape002
 70
    0
 62
    7
  6
CONTINUOUS
  0
LAYER
  5
AE0
330
ADA
100
AcDbSymbolTableRecord
100
AcDbLayerTableRecord
  2
Shape026
 70
    0
 62
    7
  6
CONTINUOUS
  0
LAYER
  5
AE1
330
ADA
100
AcDbSymbolTableRecord
100
AcDbLayerTableRecord
  2
Shape027
 70
    0
 62
    7
  6
CONTINUOUS
  0
LAYER
  5
AE2
330
ADA
100
AcDbSymbolTableRecord
100
AcDbLayerTableRecord
  2
Shape028
 70
    0
 62
    7
  6
CONTINUOUS
  0
LAYER
  5
AE3
330
ADA
100
AcDbSymbolTableRecord
100
AcDbLayerTableRecord
  2
Shape029
 70
    0
 62
    7
  6
CONTINUOUS
  0
LAYER
  5
AE4
330
ADA
100
AcDbSymbolTableRecord
100
AcDbLayerTableRecord
  2
Shape030
 70
    0
 62
    7
  6
CONTINUOUS
  0
LAYER
  5
AE5
330
ADA
100
AcDbSymbolTableRecord
100
AcDbLayerTableRecord
  2
Shape031
 70
    0
 62
    7
  6
CONTINUOUS
  0
LAYER
  5
AE6
330
ADA
100
AcDbSymbolTableRecord
100
AcDbLayerTableRecord
  2
Shape032
 70
    0
 62
    7
  6
CONTINUOUS
  0
LAYER
  5
AE7
330
ADA
100
AcDbSymbolTableRecord
100
AcDbLayerTableRecord
  2
Shape035
 70
    0
 62
    7
  6
CONTINUOUS
  0
LAYER
  5
AE8
330
ADA
100
AcDbSymbolTableRecord
100
AcDbLayerTableRecord
  2
Shape036
 70
    0
 62
    7
  6
CONTINUOUS
  0
LAYER
  5
AE9
330
ADA
100
AcDbSymbolTableRecord
100
AcDbLayerTableRecord
  2
Shape037
 70
    0
 62
    7
  6
CONTINUOUS
  0
LAYER
  5
AEA
330
ADA
100
AcDbSymbolTableRecord
100
AcDbLayerTableRecord
  2
Shape038
 70
    0
 62
    7
  6
CONTINUOUS
  0
LAYER
  5
AEB
330
ADA
100
AcDbSymbolTableRecord
100
AcDbLayerTableRecord
  2
Shape039
 70
    0
 62
    7
  6
CONTINUOUS
  0
LAYER
  5
AEC
330
ADA
100
AcDbSymbolTableRecord
100
AcDbLayerTableRecord
  2
Shape040
 70
    0
 62
    7
  6
CONTINUOUS
  0
LAYER
  5
AED
330
ADA
100
AcDbSymbolTableRecord
100
AcDbLayerTableRecord
  2
Shape041
 70
    0
 62
    7
  6
CONTINUOUS
  0
LAYER
  5
AEE
330
ADA
100
AcDbSymbolTableRecord
100
AcDbLayerTableRecord
  2
Shape042
 70
    0
 62
    7
  6
CONTINUOUS
  0
LAYER
  5
AEF
330
ADA
100
AcDbSymbolTableRecord
100
AcDbLayerTableRecord
  2
Shape043
 70
    0
 62
    7
  6
CONTINUOUS
  0
LAYER
  5
AF0
330
ADA
100
AcDbSymbolTableRecord
100
AcDbLayerTableRecord
  2
Shape045
 70
    0
 62
    7
  6
CONTINUOUS
  0
LAYER
  5
AF1
330
ADA
100
AcDbSymbolTableRecord
100
AcDbLayerTableRecord
  2
Shape046
 70
    0
 62
    7
  6
CONTINUOUS
  0
LAYER
  5
AF2
330
ADA
100
AcDbSymbolTableRecord
100
AcDbLayerTableRecord
  2
Shape047
 70
    0
 62
    7
  6
CONTINUOUS
  0
LAYER
  5
AF3
330
ADA
100
AcDbSymbolTableRecord
100
AcDbLayerTableRecord
  2
Shape048
 70
    0
 62
    7
  6
CONTINUOUS
  0
LAYER
  5
AF4
330
ADA
100
AcDbSymbolTableRecord
100
AcDbLayerTableRecord
  2
Shape049
 70
    0
 62
    7
  6
CONTINUOUS
  0
LAYER
  5
AF5
330
ADA
100
AcDbSymbolTableRecord
100
AcDbLayerTableRecord
  2
Shape050
 70
    0
 62
    7
  6
CONTINUOUS
  0
LAYER
  5
AF6
330
ADA
100
AcDbSymbolTableRecord
100
AcDbLayerTableRecord
  2
Shape051
 70
    0
 62
    7
  6
CONTINUOUS
  0
LAYER
  5
AF7
330
ADA
100
AcDbSymbolTableRecord
100
AcDbLayerTableRecord
  2
Shape052
 70
    0
 62
    7
  6
CONTINUOUS
  0
LAYER
  5
AF8
330
ADA
100
AcDbSymbolTableRecord
100
AcDbLayerTableRecord
  2
Shape053
 70
    0
 62
    7
  6
CONTINUOUS
  0
LAYER
  5
AF9
330
ADA
100
AcDbSymbolTableRecord
100
AcDbLayerTableRecord
  2
Shape056
 70
    0
 62
    7
  6
CONTINUOUS
  0
LAYER
  5
AFA
330
ADA
100
AcDbSymbolTableRecord
100
AcDbLayerTableRecord
  2
Shape057
 70
    0
 62
    7
  6
CONTINUOUS
  0
LAYER
  5
AFB
330
ADA
100
AcDbSymbolTableRecord
100
AcDbLayerTableRecord
  2
Shape058
 70
    0
 62
    7
  6
CONTINUOUS
  0
LAYER
  5
AFC
330
ADA
100
AcDbSymbolTableRecord
100
AcDbLayerTableRecord
  2
Shape059
 70
    0
 62
    7
  6
CONTINUOUS
  0
LAYER
  5
AFD
330
ADA
100
AcDbSymbolTableRecord
100
AcDbLayerTableRecord
  2
Shape060
 70
    0
 62
    7
  6
CONTINUOUS
  0
LAYER
  5
AFE
330
ADA
100
AcDbSymbolTableRecord
100
AcDbLayerTableRecord
  2
Shape061
 70
    0
 62
    7
  6
CONTINUOUS
  0
LAYER
  5
AFF
330
ADA
100
AcDbSymbolTableRecord
100
AcDbLayerTableRecord
  2
Shape062
 70
    0
 62
    7
  6
CONTINUOUS
  0
LAYER
  5
B00
330
ADA
100
AcDbSymbolTableRecord
100
AcDbLayerTableRecord
  2
Shape063
 70
    0
 62
    7
  6
CONTINUOUS
  0
LAYER
  5
B01
330
ADA
100
AcDbSymbolTableRecord
100
AcDbLayerTableRecord
  2
Shape064
 70
    0
 62
    7
  6
CONTINUOUS
  0
LAYER
  5
B02
330
ADA
100
AcDbSymbolTableRecord
100
AcDbLayerTableRecord
  2
Shape066
 70
    0
 62
    7
  6
CONTINUOUS
  0
LAYER
  5
B03
330
ADA
100
AcDbSymbolTableRecord
100
AcDbLayerTableRecord
  2
Shape067
 70
    0
 62
    7
  6
CONTINUOUS
  0
LAYER
  5
B04
330
ADA
100
AcDbSymbolTableRecord
100
AcDbLayerTableRecord
  2
Shape068
 70
    0
 62
    7
  6
CONTINUOUS
  0
LAYER
  5
B05
330
ADA
100
AcDbSymbolTableRecord
100
AcDbLayerTableRecord
  2
Shape069
 70
    0
 62
    7
  6
CONTINUOUS
  0
LAYER
  5
B06
330
ADA
100
AcDbSymbolTableRecord
100
AcDbLayerTableRecord
  2
Shape070
 70
    0
 62
    7
  6
CONTINUOUS
  0
LAYER
  5
B07
330
ADA
100
AcDbSymbolTableRecord
100
AcDbLayerTableRecord
  2
Shape071
 70
    0
 62
    7
  6
CONTINUOUS
  0
LAYER
  5
B08
330
ADA
100
AcDbSymbolTableRecord
100
AcDbLayerTableRecord
  2
Shape072
 70
    0
 62
    7
  6
CONTINUOUS
  0
LAYER
  5
B09
330
ADA
100
AcDbSymbolTableRecord
100
AcDbLayerTableRecord
  2
Shape073
 70
    0
 62
    7
  6
CONTINUOUS
  0
LAYER
  5
B0A
330
ADA
100
AcDbSymbolTableRecord
100
AcDbLayerTableRecord
  2
Shape074
 70
    0
 62
    7
  6
CONTINUOUS
  0
LAYER
  5
B0B
330
ADA
100
AcDbSymbolTableRecord
100
AcDbLayerTableRecord
  2
Shape077
 70
    0
 62
    7
  6
CONTINUOUS
  0
LAYER
  5
B0C
330
ADA
100
AcDbSymbolTableRecord
100
AcDbLayerTableRecord
  2
Shape078
 70
    0
 62
    7
  6
CONTINUOUS
  0
LAYER
  5
B0D
330
ADA
100
AcDbSymbolTableRecord
100
AcDbLayerTableRecord
  2
Shape079
 70
    0
 62
    7
  6
CONTINUOUS
  0
LAYER
  5
B0E
330
ADA
100
AcDbSymbolTableRecord
100
AcDbLayerTableRecord
  2
Shape080
 70
    0
 62
    7
  6
CONTINUOUS
  0
LAYER
  5
B0F
330
ADA
100
AcDbSymbolTableRecord
100
AcDbLayerTableRecord
  2
Shape081
 70
    0
 62
    7
  6
CONTINUOUS
  0
LAYER
  5
B10
330
ADA
100
AcDbSymbolTableRecord
100
AcDbLayerTableRecord
  2
Shape082
 70
    0
 62
    7
  6
CONTINUOUS
  0
LAYER
  5
B11
330
ADA
100
AcDbSymbolTableRecord
100
AcDbLayerTableRecord
  2
Shape083
 70
    0
 62
    7
  6
CONTINUOUS
  0
LAYER
  5
B12
330
ADA
100
AcDbSymbolTableRecord
100
AcDbLayerTableRecord
  2
Shape084
 70
    0
 62
    7
  6
CONTINUOUS
  0
LAYER
  5
B13
330
ADA
100
AcDbSymbolTableRecord
100
AcDbLayerTableRecord
  2
Shape085
 70
    0
 62
    7
  6
CONTINUOUS
  0
LAYER
  5
B14
330
ADA
100
AcDbSymbolTableRecord
100
AcDbLayerTableRecord
  2
Shape087
 70
    0
 62
    7
  6
CONTINUOUS
  0
LAYER
  5
B15
330
ADA
100
AcDbSymbolTableRecord
100
AcDbLayerTableRecord
  2
Shape088
 70
    0
 62
    7
  6
CONTINUOUS
  0
LAYER
  5
B16
330
ADA
100
AcDbSymbolTableRecord
100
AcDbLayerTableRecord
  2
Shape089
 70
    0
 62
    7
  6
CONTINUOUS
  0
LAYER
  5
B17
330
ADA
100
AcDbSymbolTableRecord
100
AcDbLayerTableRecord
  2
Shape090
 70
    0
 62
    7
  6
CONTINUOUS
  0
LAYER
  5
B18
330
ADA
100
AcDbSymbolTableRecord
100
AcDbLayerTableRecord
  2
Shape091
 70
    0
 62
    7
  6
CONTINUOUS
  0
LAYER
  5
B19
330
ADA
100
AcDbSymbolTableRecord
100
AcDbLayerTableRecord
  2
Shape092
 70
    0
 62
    7
  6
CONTINUOUS
  0
LAYER
  5
B1A
330
ADA
100
AcDbSymbolTableRecord
100
AcDbLayerTableRecord
  2
Shape093
 70
    0
 62
    7
  6
CONTINUOUS
  0
LAYER
  5
B1B
330
ADA
100
AcDbSymbolTableRecord
100
AcDbLayerTableRecord
  2
Shape094
 70
    0
 62
    7
  6
CONTINUOUS
  0
LAYER
  5
B1C
330
ADA
100
AcDbSymbolTableRecord
100
AcDbLayerTableRecord
  2
Shape095
 70
    0
 62
    7
  6
CONTINUOUS
  0
LAYER
  5
B1D
330
ADA
100
AcDbSymbolTableRecord
100
AcDbLayerTableRecord
  2
Shape098
 70
    0
 62
    7
  6
CONTINUOUS
  0
LAYER
  5
B1E
330
ADA
100
AcDbSymbolTableRecord
100
AcDbLayerTableRecord
  2
Shape099
 70
    0
 62
    7
  6
CONTINUOUS
  0
LAYER
  5
B1F
330
ADA
100
AcDbSymbolTableRecord
100
AcDbLayerTableRecord
  2
Shape100
 70
    0
 62
    7
  6
CONTINUOUS
  0
LAYER
  5
B20
330
ADA
100
AcDbSymbolTableRecord
100
AcDbLayerTableRecord
  2
Shape101
 70
    0
 62
    7
  6
CONTINUOUS
  0
LAYER
  5
B21
330
ADA
100
AcDbSymbolTableRecord
100
AcDbLayerTableRecord
  2
Shape102
 70
    0
 62
    7
  6
CONTINUOUS
  0
LAYER
  5
B22
330
ADA
100
AcDbSymbolTableRecord
100
AcDbLayerTableRecord
  2
Shape103
 70
    0
 62
    7
  6
CONTINUOUS
  0
LAYER
  5
B23
330
ADA
100
AcDbSymbolTableRecord
100
AcDbLayerTableRecord
  2
Shape104
 70
    0
 62
    7
  6
CONTINUOUS
  0
LAYER
  5
B24
330
ADA
100
AcDbSymbolTableRecord
100
AcDbLayerTableRecord
  2
Shape105
 70
    0
 62
    7
  6
CONTINUOUS
  0
LAYER
  5
B25
330
ADA
100
AcDbSymbolTableRecord
100
AcDbLayerTableRecord
  2
Shape106
 70
    0
 62
    7
  6
CONTINUOUS
  0
LAYER
  5
B26
330
ADA
100
AcDbSymbolTableRecord
100
AcDbLayerTableRecord
  2
Shape108
 70
    0
 62
    7
  6
CONTINUOUS
  0
LAYER
  5
B27
330
ADA
100
AcDbSymbolTableRecord
100
AcDbLayerTableRecord
  2
Shape109
 70
    0
 62
    7
  6
CONTINUOUS
  0
LAYER
  5
B28
330
ADA
100
AcDbSymbolTableRecord
100
AcDbLayerTableRecord
  2
Shape110
 70
    0
 62
    7
  6
CONTINUOUS
  0
LAYER
  5
B29
330
ADA
100
AcDbSymbolTableRecord
100
AcDbLayerTableRecord
  2
Shape111
 70
    0
 62
    7
  6
CONTINUOUS
  0
LAYER
  5
B2A
330
ADA
100
AcDbSymbolTableRecord
100
AcDbLayerTableRecord
  2
Shape112
 70
    0
 62
    7
  6
CONTINUOUS
  0
LAYER
  5
B2B
330
ADA
100
AcDbSymbolTableRecord
100
AcDbLayerTableRecord
  2
Shape113
 70
    0
 62
    7
  6
CONTINUOUS
  0
LAYER
  5
B2C
330
ADA
100
AcDbSymbolTableRecord
100
AcDbLayerTableRecord
  2
Shape114
 70
    0
 62
    7
  6
CONTINUOUS
  0
LAYER
  5
B2D
330
ADA
100
AcDbSymbolTableRecord
100
AcDbLayerTableRecord
  2
Shape115
 70
    0
 62
    7
  6
CONTINUOUS
  0
LAYER
  5
B2E
330
ADA
100
AcDbSymbolTableRecord
100
AcDbLayerTableRecord
  2
Shape116
 70
    0
 62
    7
  6
CONTINUOUS
  0
LAYER
  5
B2F
330
ADA
100
AcDbSymbolTableRecord
100
AcDbLayerTableRecord
  2
Shape119
 70
    0
 62
    7
  6
CONTINUOUS
  0
LAYER
  5
B30
330
ADA
100
AcDbSymbolTableRecord
100
AcDbLayerTableRecord
  2
Shape120
 70
    0
 62
    7
  6
CONTINUOUS
  0
LAYER
  5
B31
330
ADA
100
AcDbSymbolTableRecord
100
AcDbLayerTableRecord
  2
Shape121
 70
    0
 62
    7
  6
CONTINUOUS
  0
LAYER
  5
B32
330
ADA
100
AcDbSymbolTableRecord
100
AcDbLayerTableRecord
  2
Shape122
 70
    0
 62
    7
  6
CONTINUOUS
  0
LAYER
  5
B33
330
ADA
100
AcDbSymbolTableRecord
100
AcDbLayerTableRecord
  2
Shape123
 70
    0
 62
    7
  6
CONTINUOUS
  0
LAYER
  5
B34
330
ADA
100
AcDbSymbolTableRecord
100
AcDbLayerTableRecord
  2
Shape124
 70
    0
 62
    7
  6
CONTINUOUS
  0
LAYER
  5
B35
330
ADA
100
AcDbSymbolTableRecord
100
AcDbLayerTableRecord
  2
Shape125
 70
    0
 62
    7
  6
CONTINUOUS
  0
LAYER
  5
B36
330
ADA
100
AcDbSymbolTableRecord
100
AcDbLayerTableRecord
  2
Shape126
 70
    0
 62
    7
  6
CONTINUOUS
  0
LAYER
  5
B37
330
ADA
100
AcDbSymbolTableRecord
100
AcDbLayerTableRecord
  2
Shape127
 70
    0
 62
    7
  6
CONTINUOUS
  0
LAYER
  5
B38
330
ADA
100
AcDbSymbolTableRecord
100
AcDbLayerTableRecord
  2
Shape129
 70
    0
 62
    7
  6
CONTINUOUS
  0
LAYER
  5
B39
330
ADA
100
AcDbSymbolTableRecord
100
AcDbLayerTableRecord
  2
Shape130
 70
    0
 62
    7
  6
CONTINUOUS
  0
LAYER
  5
B3A
330
ADA
100
AcDbSymbolTableRecord
100
AcDbLayerTableRecord
  2
Shape131
 70
    0
 62
    7
  6
CONTINUOUS
  0
LAYER
  5
B3B
330
ADA
100
AcDbSymbolTableRecord
100
AcDbLayerTableRecord
  2
Shape132
 70
    0
 62
    7
  6
CONTINUOUS
  0
LAYER
  5
B3C
330
ADA
100
AcDbSymbolTableRecord
100
AcDbLayerTableRecord
  2
Shape133
 70
    0
 62
    7
  6
CONTINUOUS
  0
LAYER
  5
B3D
330
ADA
100
AcDbSymbolTableRecord
100
AcDbLayerTableRecord
  2
Shape134
 70
    0
 62
    7
  6
CONTINUOUS
  0
LAYER
  5
B3E
330
ADA
100
AcDbSymbolTableRecord
100
AcDbLayerTableRecord
  2
Shape135
 70
    0
 62
    7
  6
CONTINUOUS
  0
LAYER
  5
B3F
330
ADA
100
AcDbSymbolTableRecord
100
AcDbLayerTableRecord
  2
Shape136
 70
    0
 62
    7
  6
CONTINUOUS
  0
LAYER
  5
B40
330
ADA
100
AcDbSymbolTableRecord
100
AcDbLayerTableRecord
  2
Shape137
 70
    0
 62
    7
  6
CONTINUOUS
  0
LAYER
  5
B41
330
ADA
100
AcDbSymbolTableRecord
100
AcDbLayerTableRecord
  2
Shape140
 70
    0
 62
    7
  6
CONTINUOUS
  0
LAYER
  5
B42
330
ADA
100
AcDbSymbolTableRecord
100
AcDbLayerTableRecord
  2
Shape141
 70
    0
 62
    7
  6
CONTINUOUS
  0
LAYER
  5
B43
330
ADA
100
AcDbSymbolTableRecord
100
AcDbLayerTableRecord
  2
Shape142
 70
    0
 62
    7
  6
CONTINUOUS
  0
LAYER
  5
B44
330
ADA
100
AcDbSymbolTableRecord
100
AcDbLayerTableRecord
  2
Shape143
 70
    0
 62
    7
  6
CONTINUOUS
  0
LAYER
  5
B45
330
ADA
100
AcDbSymbolTableRecord
100
AcDbLayerTableRecord
  2
Shape144
 70
    0
 62
    7
  6
CONTINUOUS
  0
LAYER
  5
B46
330
ADA
100
AcDbSymbolTableRecord
100
AcDbLayerTableRecord
  2
Shape145
 70
    0
 62
    7
  6
CONTINUOUS
  0
LAYER
  5
B47
330
ADA
100
AcDbSymbolTableRecord
100
AcDbLayerTableRecord
  2
Shape146
 70
    0
 62
    7
  6
CONTINUOUS
  0
LAYER
  5
B48
330
ADA
100
AcDbSymbolTableRecord
100
AcDbLayerTableRecord
  2
Shape147
 70
    0
 62
    7
  6
CONTINUOUS
  0
LAYER
  5
B49
330
ADA
100
AcDbSymbolTableRecord
100
AcDbLayerTableRecord
  2
Shape148
 70
    0
 62
    7
  6
CONTINUOUS
  0
LAYER
  5
B4A
330
ADA
100
AcDbSymbolTableRecord
100
AcDbLayerTableRecord
  2
Shape150
 70
    0
 62
    7
  6
CONTINUOUS
  0
LAYER
  5
B4B
330
ADA
100
AcDbSymbolTableRecord
100
AcDbLayerTableRecord
  2
Shape151
 70
    0
 62
    7
  6
CONTINUOUS
  0
LAYER
  5
B4C
330
ADA
100
AcDbSymbolTableRecord
100
AcDbLayerTableRecord
  2
Shape152
 70
    0
 62
    7
  6
CONTINUOUS
  0
LAYER
  5
B4D
330
ADA
100
AcDbSymbolTableRecord
100
AcDbLayerTableRecord
  2
Shape153
 70
    0
 62
    7
  6
CONTINUOUS
  0
LAYER
  5
B4E
330
ADA
100
AcDbSymbolTableRecord
100
AcDbLayerTableRecord
  2
Shape154
 70
    0
 62
    7
  6
CONTINUOUS
  0
LAYER
  5
B4F
330
ADA
100
AcDbSymbolTableRecord
100
AcDbLayerTableRecord
  2
Shape155
 70
    0
 62
    7
  6
CONTINUOUS
  0
LAYER
  5
B50
330
ADA
100
AcDbSymbolTableRecord
100
AcDbLayerTableRecord
  2
Shape156
 70
    0
 62
    7
  6
CONTINUOUS
  0
LAYER
  5
B51
330
ADA
100
AcDbSymbolTableRecord
100
AcDbLayerTableRecord
  2
Shape157
 70
    0
 62
    7
  6
CONTINUOUS
  0
LAYER
  5
B52
330
ADA
100
AcDbSymbolTableRecord
100
AcDbLayerTableRecord
  2
Shape158
 70
    0
 62
    7
  6
CONTINUOUS
  0
LAYER
  5
B53
330
ADA
100
AcDbSymbolTableRecord
100
AcDbLayerTableRecord
  2
Shape161
 70
    0
 62
    7
  6
CONTINUOUS
  0
LAYER
  5
B54
330
ADA
100
AcDbSymbolTableRecord
100
AcDbLayerTableRecord
  2
Shape162
 70
    0
 62
    7
  6
CONTINUOUS
  0
LAYER
  5
B55
330
ADA
100
AcDbSymbolTableRecord
100
AcDbLayerTableRecord
  2
Shape163
 70
    0
 62
    7
  6
CONTINUOUS
  0
LAYER
  5
B56
330
ADA
100
AcDbSymbolTableRecord
100
AcDbLayerTableRecord
  2
Shape164
 70
    0
 62
    7
  6
CONTINUOUS
  0
LAYER
  5
B57
330
ADA
100
AcDbSymbolTableRecord
100
AcDbLayerTableRecord
  2
Shape165
 70
    0
 62
    7
  6
CONTINUOUS
  0
LAYER
  5
B58
330
ADA
100
AcDbSymbolTableRecord
100
AcDbLayerTableRecord
  2
Shape166
 70
    0
 62
    7
  6
CONTINUOUS
  0
LAYER
  5
B59
330
ADA
100
AcDbSymbolTableRecord
100
AcDbLayerTableRecord
  2
Shape167
 70
    0
 62
    7
  6
CONTINUOUS
  0
LAYER
  5
B5A
330
ADA
100
AcDbSymbolTableRecord
100
AcDbLayerTableRecord
  2
Shape168
 70
    0
 62
    7
  6
CONTINUOUS
  0
LAYER
  5
B5B
330
ADA
100
AcDbSymbolTableRecord
100
AcDbLayerTableRecord
  2
Shape169
 70
    0
 62
    7
  6
CONTINUOUS
  0
LAYER
  5
B5C
330
ADA
100
AcDbSymbolTableRecord
100
AcDbLayerTableRecord
  2
Shape171
 70
    0
 62
    7
  6
CONTINUOUS
  0
LAYER
  5
B5D
330
ADA
100
AcDbSymbolTableRecord
100
AcDbLayerTableRecord
  2
Shape172
 70
    0
 62
    7
  6
CONTINUOUS
  0
LAYER
  5
B5E
330
ADA
100
AcDbSymbolTableRecord
100
AcDbLayerTableRecord
  2
Shape173
 70
    0
 62
    7
  6
CONTINUOUS
  0
LAYER
  5
B5F
330
ADA
100
AcDbSymbolTableRecord
100
AcDbLayerTableRecord
  2
Shape174
 70
    0
 62
    7
  6
CONTINUOUS
  0
LAYER
  5
B60
330
ADA
100
AcDbSymbolTableRecord
100
AcDbLayerTableRecord
  2
Shape175
 70
    0
 62
    7
  6
CONTINUOUS
  0
LAYER
  5
B61
330
ADA
100
AcDbSymbolTableRecord
100
AcDbLayerTableRecord
  2
Shape176
 70
    0
 62
    7
  6
CONTINUOUS
  0
LAYER
  5
B62
330
ADA
100
AcDbSymbolTableRecord
100
AcDbLayerTableRecord
  2
Shape177
 70
    0
 62
    7
  6
CONTINUOUS
  0
LAYER
  5
B63
330
ADA
100
AcDbSymbolTableRecord
100
AcDbLayerTableRecord
  2
Shape178
 70
    0
 62
    7
  6
CONTINUOUS
  0
LAYER
  5
B64
330
ADA
100
AcDbSymbolTableRecord
100
AcDbLayerTableRecord
  2
Shape179
 70
    0
 62
    7
  6
CONTINUOUS
  0
LAYER
  5
B65
330
ADA
100
AcDbSymbolTableRecord
100
AcDbLayerTableRecord
  2
Shape182
 70
    0
 62
    7
  6
CONTINUOUS
  0
LAYER
  5
B66
330
ADA
100
AcDbSymbolTableRecord
100
AcDbLayerTableRecord
  2
Shape183
 70
    0
 62
    7
  6
CONTINUOUS
  0
LAYER
  5
B67
330
ADA
100
AcDbSymbolTableRecord
100
AcDbLayerTableRecord
  2
Shape184
 70
    0
 62
    7
  6
CONTINUOUS
  0
LAYER
  5
B68
330
ADA
100
AcDbSymbolTableRecord
100
AcDbLayerTableRecord
  2
Shape185
 70
    0
 62
    7
  6
CONTINUOUS
  0
LAYER
  5
B69
330
ADA
100
AcDbSymbolTableRecord
100
AcDbLayerTableRecord
  2
Shape186
 70
    0
 62
    7
  6
CONTINUOUS
  0
LAYER
  5
B6A
330
ADA
100
AcDbSymbolTableRecord
100
AcDbLayerTableRecord
  2
Shape187
 70
    0
 62
    7
  6
CONTINUOUS
  0
LAYER
  5
B6B
330
ADA
100
AcDbSymbolTableRecord
100
AcDbLayerTableRecord
  2
Shape188
 70
    0
 62
    7
  6
CONTINUOUS
  0
LAYER
  5
B6C
330
ADA
100
AcDbSymbolTableRecord
100
AcDbLayerTableRecord
  2
Shape189
 70
    0
 62
    7
  6
CONTINUOUS
  0
LAYER
  5
B6D
330
ADA
100
AcDbSymbolTableRecord
100
AcDbLayerTableRecord
  2
Shape190
 70
    0
 62
    7
  6
CONTINUOUS
  0
LAYER
  5
B6E
330
ADA
100
AcDbSymbolTableRecord
100
AcDbLayerTableRecord
  2
Shape192
 70
    0
 62
    7
  6
CONTINUOUS
  0
LAYER
  5
B6F
330
ADA
100
AcDbSymbolTableRecord
100
AcDbLayerTableRecord
  2
Line
 70
    0
 62
    7
  6
CONTINUOUS
  0
LAYER
  5
B70
330
ADA
100
AcDbSymbolTableRecord
100
AcDbLayerTableRecord
  2
Line001
 70
    0
 62
    7
  6
CONTINUOUS
  0
LAYER
  5
B71
330
ADA
100
AcDbSymbolTableRecord
100
AcDbLayerTableRecord
  2
Shape195
 70
    0
 62
    7
  6
CONTINUOUS
  0
LAYER
  5
B72
330
ADA
100
AcDbSymbolTableRecord
100
AcDbLayerTableRecord
  2
Shape196
 70
    0
 62
    7
  6
CONTINUOUS
  0
LAYER
  5
B73
330
ADA
100
AcDbSymbolTableRecord
100
AcDbLayerTableRecord
  2
Shape198
 70
    0
 62
    7
  6
CONTINUOUS
  0
LAYER
  5
B74
330
ADA
100
AcDbSymbolTableRecord
100
AcDbLayerTableRecord
  2
Shape199
 70
    0
 62
    7
  6
CONTINUOUS
  0
LAYER
  5
B75
330
ADA
100
AcDbSymbolTableRecord
100
AcDbLayerTableRecord
  2
Shape200
 70
    0
 62
    7
  6
CONTINUOUS
  0
LAYER
  5
B76
330
ADA
100
AcDbSymbolTableRecord
100
AcDbLayerTableRecord
  2
Shape212
 70
    0
 62
    7
  6
CONTINUOUS
  0
LAYER
  5
B77
330
ADA
100
AcDbSymbolTableRecord
100
AcDbLayerTableRecord
  2
Shape214
 70
    0
 62
    7
  6
CONTINUOUS
  0
LAYER
  5
B78
330
ADA
100
AcDbSymbolTableRecord
100
AcDbLayerTableRecord
  2
Shape215
 70
    0
 62
    7
  6
CONTINUOUS
  0
LAYER
  5
B79
330
ADA
100
AcDbSymbolTableRecord
100
AcDbLayerTableRecord
  2
Shape216
 70
    0
 62
    7
  6
CONTINUOUS
  0
LAYER
  5
B7A
330
ADA
100
AcDbSymbolTableRecord
100
AcDbLayerTableRecord
  2
Shape217
 70
    0
 62
    7
  6
CONTINUOUS
  0
LAYER
  5
B7B
330
ADA
100
AcDbSymbolTableRecord
100
AcDbLayerTableRecord
  2
Shape218
 70
    0
 62
    7
  6
CONTINUOUS
  0
LAYER
  5
B7C
330
ADA
100
AcDbSymbolTableRecord
100
AcDbLayerTableRecord
  2
Shape219
 70
    0
 62
    7
  6
CONTINUOUS
  0
LAYER
  5
B7D
330
ADA
100
AcDbSymbolTableRecord
100
AcDbLayerTableRecord
  2
Shape220
 70
    0
 62
    7
  6
CONTINUOUS
  0
LAYER
  5
B7E
330
ADA
100
AcDbSymbolTableRecord
100
AcDbLayerTableRecord
  2
Shape221
 70
    0
 62
    7
  6
CONTINUOUS
  0
LAYER
  5
B7F
330
ADA
100
AcDbSymbolTableRecord
100
AcDbLayerTableRecord
  2
Shape225
 70
    0
 62
    7
  6
CONTINUOUS
  0
LAYER
  5
B80
330
ADA
100
AcDbSymbolTableRecord
100
AcDbLayerTableRecord
  2
Shape226
 70
    0
 62
    7
  6
CONTINUOUS
  0
LAYER
  5
B81
330
ADA
100
AcDbSymbolTableRecord
100
AcDbLayerTableRecord
  2
Shape227
 70
    0
 62
    7
  6
CONTINUOUS
  0
LAYER
  5
B82
330
ADA
100
AcDbSymbolTableRecord
100
AcDbLayerTableRecord
  2
Shape228
 70
    0
 62
    7
  6
CONTINUOUS
  0
LAYER
  5
B83
330
ADA
100
AcDbSymbolTableRecord
100
AcDbLayerTableRecord
  2
Shape229
 70
    0
 62
    7
  6
CONTINUOUS
  0
LAYER
  5
B84
330
ADA
100
AcDbSymbolTableRecord
100
AcDbLayerTableRecord
  2
Shape230
 70
    0
 62
    7
  6
CONTINUOUS
  0
LAYER
  5
B85
330
ADA
100
AcDbSymbolTableRecord
100
AcDbLayerTableRecord
  2
Shape231
 70
    0
 62
    7
  6
CONTINUOUS
  0
LAYER
  5
B86
330
ADA
100
AcDbSymbolTableRecord
100
AcDbLayerTableRecord
  2
Shape232
 70
    0
 62
    7
  6
CONTINUOUS
  0
LAYER
  5
B87
330
ADA
100
AcDbSymbolTableRecord
100
AcDbLayerTableRecord
  2
Shape233
 70
    0
 62
    7
  6
CONTINUOUS
  0
LAYER
  5
B88
330
ADA
100
AcDbSymbolTableRecord
100
AcDbLayerTableRecord
  2
Shape234
 70
    0
 62
    7
  6
CONTINUOUS
  0
LAYER
  5
B89
330
ADA
100
AcDbSymbolTableRecord
100
AcDbLayerTableRecord
  2
Shape235
 70
    0
 62
    7
  6
CONTINUOUS
  0
LAYER
  5
B8A
330
ADA
100
AcDbSymbolTableRecord
100
AcDbLayerTableRecord
  2
Shape236
 70
    0
 62
    7
  6
CONTINUOUS
  0
LAYER
  5
B8B
330
ADA
100
AcDbSymbolTableRecord
100
AcDbLayerTableRecord
  2
Shape237
 70
    0
 62
    7
  6
CONTINUOUS
  0
LAYER
  5
B8C
330
ADA
100
AcDbSymbolTableRecord
100
AcDbLayerTableRecord
  2
Shape238
 70
    0
 62
    7
  6
CONTINUOUS
  0
LAYER
  5
B8D
330
ADA
100
AcDbSymbolTableRecord
100
AcDbLayerTableRecord
  2
Shape239
 70
    0
 62
    7
  6
CONTINUOUS
  0
LAYER
  5
B8E
330
ADA
100
AcDbSymbolTableRecord
100
AcDbLayerTableRecord
  2
Shape240
 70
    0
 62
    7
  6
CONTINUOUS
  0
LAYER
  5
B8F
330
ADA
100
AcDbSymbolTableRecord
100
AcDbLayerTableRecord
  2
Shape241
 70
    0
 62
    7
  6
CONTINUOUS
  0
LAYER
  5
B90
330
ADA
100
AcDbSymbolTableRecord
100
AcDbLayerTableRecord
  2
Shape245
 70
    0
 62
    7
  6
CONTINUOUS
  0
LAYER
  5
B91
330
ADA
100
AcDbSymbolTableRecord
100
AcDbLayerTableRecord
  2
Shape246
 70
    0
 62
    7
  6
CONTINUOUS
  0
LAYER
  5
B92
330
ADA
100
AcDbSymbolTableRecord
100
AcDbLayerTableRecord
  2
Shape247
 70
    0
 62
    7
  6
CONTINUOUS
  0
LAYER
  5
B93
330
ADA
100
AcDbSymbolTableRecord
100
AcDbLayerTableRecord
  2
Shape248
 70
    0
 62
    7
  6
CONTINUOUS
  0
LAYER
  5
B94
330
ADA
100
AcDbSymbolTableRecord
100
AcDbLayerTableRecord
  2
Shape249
 70
    0
 62
    7
  6
CONTINUOUS
  0
LAYER
  5
B95
330
ADA
100
AcDbSymbolTableRecord
100
AcDbLayerTableRecord
  2
Shape250
 70
    0
 62
    7
  6
CONTINUOUS
  0
LAYER
  5
B96
330
ADA
100
AcDbSymbolTableRecord
100
AcDbLayerTableRecord
  2
Shape251
 70
    0
 62
    7
  6
CONTINUOUS
  0
LAYER
  5
B97
330
ADA
100
AcDbSymbolTableRecord
100
AcDbLayerTableRecord
  2
Shape252
 70
    0
 62
    7
  6
CONTINUOUS
  0
LAYER
  5
B98
330
ADA
100
AcDbSymbolTableRecord
100
AcDbLayerTableRecord
  2
Shape253
 70
    0
 62
    7
  6
CONTINUOUS
  0
LAYER
  5
B99
330
ADA
100
AcDbSymbolTableRecord
100
AcDbLayerTableRecord
  2
Shape254
 70
    0
 62
    7
  6
CONTINUOUS
  0
LAYER
  5
B9A
330
ADA
100
AcDbSymbolTableRecord
100
AcDbLayerTableRecord
  2
Shape255
 70
    0
 62
    7
  6
CONTINUOUS
  0
LAYER
  5
B9B
330
ADA
100
AcDbSymbolTableRecord
100
AcDbLayerTableRecord
  2
Shape256
 70
    0
 62
    7
  6
CONTINUOUS
  0
LAYER
  5
B9C
330
ADA
100
AcDbSymbolTableRecord
100
AcDbLayerTableRecord
  2
Shape257
 70
    0
 62
    7
  6
CONTINUOUS
  0
LAYER
  5
B9D
330
ADA
100
AcDbSymbolTableRecord
100
AcDbLayerTableRecord
  2
Shape258
 70
    0
 62
    7
  6
CONTINUOUS
  0
LAYER
  5
B9E
330
ADA
100
AcDbSymbolTableRecord
100
AcDbLayerTableRecord
  2
Shape259
 70
    0
 62
    7
  6
CONTINUOUS
  0
LAYER
  5
B9F
330
ADA
100
AcDbSymbolTableRecord
100
AcDbLayerTableRecord
  2
Shape260
 70
    0
 62
    7
  6
CONTINUOUS
  0
LAYER
  5
BA0
330
ADA
100
AcDbSymbolTableRecord
100
AcDbLayerTableRecord
  2
Shape261
 70
    0
 62
    7
  6
CONTINUOUS
  0
LAYER
  5
BA1
330
ADA
100
AcDbSymbolTableRecord
100
AcDbLayerTableRecord
  2
Shape264
 70
    0
 62
    7
  6
CONTINUOUS
  0
LAYER
  5
BA2
330
ADA
100
AcDbSymbolTableRecord
100
AcDbLayerTableRecord
  2
Shape265
 70
    0
 62
    7
  6
CONTINUOUS
  0
LAYER
  5
BA3
330
ADA
100
AcDbSymbolTableRecord
100
AcDbLayerTableRecord
  2
Shape266
 70
    0
 62
    7
  6
CONTINUOUS
  0
LAYER
  5
BA4
330
ADA
100
AcDbSymbolTableRecord
100
AcDbLayerTableRecord
  2
Shape267
 70
    0
 62
    7
  6
CONTINUOUS
  0
LAYER
  5
BA5
330
ADA
100
AcDbSymbolTableRecord
100
AcDbLayerTableRecord
  2
Shape268
 70
    0
 62
    7
  6
CONTINUOUS
  0
LAYER
  5
BA6
330
ADA
100
AcDbSymbolTableRecord
100
AcDbLayerTableRecord
  2
Shape269
 70
    0
 62
    7
  6
CONTINUOUS
  0
LAYER
  5
BA7
330
ADA
100
AcDbSymbolTableRecord
100
AcDbLayerTableRecord
  2
Shape270
 70
    0
 62
    7
  6
CONTINUOUS
  0
LAYER
  5
BA8
330
ADA
100
AcDbSymbolTableRecord
100
AcDbLayerTableRecord
  2
Shape271
 70
    0
 62
    7
  6
CONTINUOUS
  0
LAYER
  5
BA9
330
ADA
100
AcDbSymbolTableRecord
100
AcDbLayerTableRecord
  2
Shape272
 70
    0
 62
    7
  6
CONTINUOUS
  0
LAYER
  5
BAA
330
ADA
100
AcDbSymbolTableRecord
100
AcDbLayerTableRecord
  2
Shape224
 70
    0
 62
    7
  6
CONTINUOUS
  0
LAYER
  5
BAB
330
ADA
100
AcDbSymbolTableRecord
100
AcDbLayerTableRecord
  2
Shape024
 70
    0
 62
    7
  6
CONTINUOUS
  0
LAYER
  5
BAC
330
ADA
100
AcDbSymbolTableRecord
100
AcDbLayerTableRecord
  2
Shape025
 70
    0
 62
    7
  6
CONTINUOUS
  0
LAYER
  5
BAD
330
ADA
100
AcDbSymbolTableRecord
100
AcDbLayerTableRecord
  2
Shape244
 70
    0
 62
    7
  6
CONTINUOUS
  0
LAYER
  5
BAE
330
ADA
100
AcDbSymbolTableRecord
100
AcDbLayerTableRecord
  2
Shape213
 70
    0
 62
    7
  6
CONTINUOUS
  0
ENDTAB
  0
TABLE
  2
STYLE
  5
70
330
0
100
AcDbSymbolTable
 70
     2
  0
STYLE
  5
71
330
70
100
AcDbSymbolTableRecord
100
AcDbTextStyleTableRecord
  2
STANDARD
 70
     0
 40
0.0
 41
1.0
 50
0.0
 71
     0
 42
2.5
  3
arial.ttf
  4

  0
STYLE
  5
72
330
70
100
AcDbSymbolTableRecord
100
AcDbTextStyleTableRecord
  2
ANNOTATIVE
 70
     0
 40
0.0
 41
1.0
 50
0.0
 71
     0
 42
2.5
  3
arial.ttf
  4

  0
ENDTAB
  0
TABLE
  2
VIEW
  5
73
330
0
100
AcDbSymbolTable
 70
     0
  0
ENDTAB
  0
TABLE
  2
UCS
  5
74
330
0
100
AcDbSymbolTable
 70
     0
  0
ENDTAB
  0
TABLE
  2
APPID
  5
75
330
0
100
AcDbSymbolTable
 70
     2
  0
APPID
  5
76
330
75
100
AcDbSymbolTableRecord
100
AcDbRegAppTableRecord
  2
ACAD
 70
     0
  0
APPID
  5
77
330
75
100
AcDbSymbolTableRecord
100
AcDbRegAppTableRecord
  2
ACADANNOTATIVE
 70
     0
  0
ENDTAB
  0
TABLE
  2
DIMSTYLE
  5
78
330
0
100
AcDbSymbolTable
 70
     2
  0
DIMSTYLE
105
79
330
78
100
AcDbSymbolTableRecord
100
AcDbDimStyleTableRecord
  2
STANDARD
 70
     0
  3

  4

  5

  6

  7

 40
0.0
 41
2.5
 42
0.625
 43
3.75
 44
1.25
 45
0.0
 46
0.0
 47
0.0
 48
0.0
140
2.5
141
2.5
142
0.0
143
0.03937007874016
144
1.0
145
0.0
146
1.0
147
0.625
 71
     0
 72
     0
 73
     0
 74
     0
 75
     0
 76
     0
 77
     1
 78
     8
170
     0
171
     3
172
     1
173
     0
174
     0
175
     0
176
     0
177
     0
178
     0
270
     2
271
     2
272
     2
273
     2
274
     3
340
71
275
     0
280
     0
281
     0
282
     0
283
     0
284
     8
285
     0
286
     0
287
     3
288
     0
  0
ENDTAB
  0
TABLE
  2
BLOCK_RECORD
  5
A01
330
0
100
AcDbSymbolTable
  70
5
  0
BLOCK_RECORD
  5
A02
330
A01
100
AcDbSymbolTableRecord
100
AcDbBlockTableRecord
  2
*MODEL_SPACE
  0
BLOCK_RECORD
  5
A03
330
A01
100
AcDbSymbolTableRecord
100
AcDbBlockTableRecord
  2
*PAPER_SPACE
  0
ENDTAB
  0
ENDSEC
  0
SECTION
  2
BLOCKS
  0
BLOCK
  5
A04
330
A02
100
AcDbEntity
  8
0
100
AcDbBlockBegin
  2
*MODEL_SPACE
 70
   0
 10
0
 20
0
 30
0
  3
*MODEL_SPACE
  1
 
  0
ENDBLK
  5
A05
330
A02
100
AcDbEntity
  8
0
100
AcDbBlockEnd
  0
BLOCK
  5
A06
330
A03
100
AcDbEntity
 67
1
  8
0
100
AcDbBlockBegin
  2
*PAPER_SPACE
 70
   0
 10
0
 20
0
 30
0
  3
*PAPER_SPACE
  1
 
  0
ENDBLK
  5
A07
330
A03
100
AcDbEntity
 67
    1
  8
0
100
AcDbBlockEnd
  0
ENDSEC
  0
SECTION
  2
ENTITIES
  0
LINE
  5
A08
330
A02
100
AcDbEntity
  8
Shape
100
AcDbLine
 10
0
 20
365
 30
0
 11
934.7
 21
365
 31
0
  0
LINE
  5
A09
330
A02
100
AcDbEntity
  8
Shape001
100
AcDbLine
 10
934.7
 20
0
 30
0
 11
0
 21
0
 31
0
  0
LINE
  5
A0A
330
A02
100
AcDbEntity
  8
Shape002
100
AcDbLine
 10
0
 20
0
 30
0
 11
0
 21
365
 31
0
  0
CIRCLE
  5
A0B
330
A02
100
AcDbEntity
  8
Shape026
100
AcDbCircle
 10
798.85
 20
260
 40
4
  0
CIRCLE
  5
A0C
330
A02
100
AcDbEntity
  8
Shape027
100
AcDbCircle
 10
798.85
 20
230
 40
4
  0
CIRCLE
  5
A0D
330
A02
100
AcDbEntity
  8
Shape028
100
AcDbCircle
 10
798.85
 20
200
 40
4
  0
CIRCLE
  5
A0E
330
A02
100
AcDbEntity
  8
Shape029
100
AcDbCircle
 10
798.85
 20
170
 40
4
  0
CIRCLE
  5
A0F
330
A02
100
AcDbEntity
  8
Shape030
100
AcDbCircle
 10
798.85
 20
140
 40
4
  0
CIRCLE
  5
A10
330
A02
100
AcDbEntity
  8
Shape031
100
AcDbCircle
 10
798.85
 20
110
 40
4
  0
CIRCLE
  5
A11
330
A02
100
AcDbEntity
  8
Shape032
100
AcDbCircle
 10
798.85
 20
80
 40
4
  0
CIRCLE
  5
A12
330
A02
100
AcDbEntity
  8
Shape035
100
AcDbCircle
 10
747.85
 20
305
 40
4
  0
CIRCLE
  5
A13
330
A02
100
AcDbEntity
  8
Shape036
100
AcDbCircle
 10
747.85
 20
275
 40
4
  0
CIRCLE
  5
A14
330
A02
100
AcDbEntity
  8
Shape037
100
AcDbCircle
 10
747.85
 20
245
 40
4
  0
CIRCLE
  5
A15
330
A02
100
AcDbEntity
  8
Shape038
100
AcDbCircle
 10
747.85
 20
215
 40
4
  0
CIRCLE
  5
A16
330
A02
100
AcDbEntity
  8
Shape039
100
AcDbCircle
 10
747.85
 20
185
 40
4
  0
CIRCLE
  5
A17
330
A02
100
AcDbEntity
  8
Shape040
100
AcDbCircle
 10
747.85
 20
155
 40
4
  0
CIRCLE
  5
A18
330
A02
100
AcDbEntity
  8
Shape041
100
AcDbCircle
 10
747.85
 20
125
 40
4
  0
CIRCLE
  5
A19
330
A02
100
AcDbEntity
  8
Shape042
100
AcDbCircle
 10
747.85
 20
95
 40
4
  0
CIRCLE
  5
A1A
330
A02
100
AcDbEntity
  8
Shape043
100
AcDbCircle
 10
747.85
 20
65
 40
4
  0
CIRCLE
  5
A1B
330
A02
100
AcDbEntity
  8
Shape045
100
AcDbCircle
 10
696.85
 20
320
 40
4
  0
CIRCLE
  5
A1C
330
A02
100
AcDbEntity
  8
Shape046
100
AcDbCircle
 10
696.85
 20
290
 40
4
  0
CIRCLE
  5
A1D
330
A02
100
AcDbEntity
  8
Shape047
100
AcDbCircle
 10
696.85
 20
260
 40
4
  0
CIRCLE
  5
A1E
330
A02
100
AcDbEntity
  8
Shape048
100
AcDbCircle
 10
696.85
 20
230
 40
4
  0
CIRCLE
  5
A1F
330
A02
100
AcDbEntity
  8
Shape049
100
AcDbCircle
 10
696.85
 20
200
 40
4
  0
CIRCLE
  5
A20
330
A02
100
AcDbEntity
  8
Shape050
100
AcDbCircle
 10
696.85
 20
170
 40
4
  0
CIRCLE
  5
A21
330
A02
100
AcDbEntity
  8
Shape051
100
AcDbCircle
 10
696.85
 20
140
 40
4
  0
CIRCLE
  5
A22
330
A02
100
AcDbEntity
  8
Shape052
100
AcDbCircle
 10
696.85
 20
110
 40
4
  0
CIRCLE
  5
A23
330
A02
100
AcDbEntity
  8
Shape053
100
AcDbCircle
 10
696.85
 20
80
 40
4
  0
CIRCLE
  5
A24
330
A02
100
AcDbEntity
  8
Shape056
100
AcDbCircle
 10
645.85
 20
305
 40
4
  0
CIRCLE
  5
A25
330
A02
100
AcDbEntity
  8
Shape057
100
AcDbCircle
 10
645.85
 20
275
 40
4
  0
CIRCLE
  5
A26
330
A02
100
AcDbEntity
  8
Shape058
100
AcDbCircle
 10
645.85
 20
245
 40
4
  0
CIRCLE
  5
A27
330
A02
100
AcDbEntity
  8
Shape059
100
AcDbCircle
 10
645.85
 20
215
 40
4
  0
CIRCLE
  5
A28
330
A02
100
AcDbEntity
  8
Shape060
100
AcDbCircle
 10
645.85
 20
185
 40
4
  0
CIRCLE
  5
A29
330
A02
100
AcDbEntity
  8
Shape061
100
AcDbCircle
 10
645.85
 20
155
 40
4
  0
CIRCLE
  5
A2A
330
A02
100
AcDbEntity
  8
Shape062
100
AcDbCircle
 10
645.85
 20
125
 40
4
  0
CIRCLE
  5
A2B
330
A02
100
AcDbEntity
  8
Shape063
100
AcDbCircle
 10
645.85
 20
95
 40
4
  0
CIRCLE
  5
A2C
330
A02
100
AcDbEntity
  8
Shape064
100
AcDbCircle
 10
645.85
 20
65
 40
4
  0
CIRCLE
  5
A2D
330
A02
100
AcDbEntity
  8
Shape066
100
AcDbCircle
 10
594.85
 20
320
 40
4
  0
CIRCLE
  5
A2E
330
A02
100
AcDbEntity
  8
Shape067
100
AcDbCircle
 10
594.85
 20
290
 40
4
  0
CIRCLE
  5
A2F
330
A02
100
AcDbEntity
  8
Shape068
100
AcDbCircle
 10
594.85
 20
260
 40
4
  0
CIRCLE
  5
A30
330
A02
100
AcDbEntity
  8
Shape069
100
AcDbCircle
 10
594.85
 20
230
 40
4
  0
CIRCLE
  5
A31
330
A02
100
AcDbEntity
  8
Shape070
100
AcDbCircle
 10
594.85
 20
200
 40
4
  0
CIRCLE
  5
A32
330
A02
100
AcDbEntity
  8
Shape071
100
AcDbCircle
 10
594.85
 20
170
 40
4
  0
CIRCLE
  5
A33
330
A02
100
AcDbEntity
  8
Shape072
100
AcDbCircle
 10
594.85
 20
140
 40
4
  0
CIRCLE
  5
A34
330
A02
100
AcDbEntity
  8
Shape073
100
AcDbCircle
 10
594.85
 20
110
 40
4
  0
CIRCLE
  5
A35
330
A02
100
AcDbEntity
  8
Shape074
100
AcDbCircle
 10
594.85
 20
80
 40
4
  0
CIRCLE
  5
A36
330
A02
100
AcDbEntity
  8
Shape077
100
AcDbCircle
 10
543.85
 20
305
 40
4
  0
CIRCLE
  5
A37
330
A02
100
AcDbEntity
  8
Shape078
100
AcDbCircle
 10
543.85
 20
275
 40
4
  0
CIRCLE
  5
A38
330
A02
100
AcDbEntity
  8
Shape079
100
AcDbCircle
 10
543.85
 20
245
 40
4
  0
CIRCLE
  5
A39
330
A02
100
AcDbEntity
  8
Shape080
100
AcDbCircle
 10
543.85
 20
215
 40
4
  0
CIRCLE
  5
A3A
330
A02
100
AcDbEntity
  8
Shape081
100
AcDbCircle
 10
543.85
 20
185
 40
4
  0
CIRCLE
  5
A3B
330
A02
100
AcDbEntity
  8
Shape082
100
AcDbCircle
 10
543.85
 20
155
 40
4
  0
CIRCLE
  5
A3C
330
A02
100
AcDbEntity
  8
Shape083
100
AcDbCircle
 10
543.85
 20
125
 40
4
  0
CIRCLE
  5
A3D
330
A02
100
AcDbEntity
  8
Shape084
100
AcDbCircle
 10
543.85
 20
95
 40
4
  0
CIRCLE
  5
A3E
330
A02
100
AcDbEntity
  8
Shape085
100
AcDbCircle
 10
543.85
 20
65
 40
4
  0
CIRCLE
  5
A3F
330
A02
100
AcDbEntity
  8
Shape087
100
AcDbCircle
 10
492.85
 20
320
 40
4
  0
CIRCLE
  5
A40
330
A02
100
AcDbEntity
  8
Shape088
100
AcDbCircle
 10
492.85
 20
290
 40
4
  0
CIRCLE
  5
A41
330
A02
100
AcDbEntity
  8
Shape089
100
AcDbCircle
 10
492.85
 20
260
 40
4
  0
CIRCLE
  5
A42
330
A02
100
AcDbEntity
  8
Shape090
100
AcDbCircle
 10
492.85
 20
230
 40
4
  0
CIRCLE
  5
A43
330
A02
100
AcDbEntity
  8
Shape091
100
AcDbCircle
 10
492.85
 20
200
 40
4
  0
CIRCLE
  5
A44
330
A02
100
AcDbEntity
  8
Shape092
100
AcDbCircle
 10
492.85
 20
170
 40
4
  0
CIRCLE
  5
A45
330
A02
100
AcDbEntity
  8
Shape093
100
AcDbCircle
 10
492.85
 20
140
 40
4
  0
CIRCLE
  5
A46
330
A02
100
AcDbEntity
  8
Shape094
100
AcDbCircle
 10
492.85
 20
110
 40
4
  0
CIRCLE
  5
A47
330
A02
100
AcDbEntity
  8
Shape095
100
AcDbCircle
 10
492.85
 20
80
 40
4
  0
CIRCLE
  5
A48
330
A02
100
AcDbEntity
  8
Shape098
100
AcDbCircle
 10
441.85
 20
305
 40
4
  0
CIRCLE
  5
A49
330
A02
100
AcDbEntity
  8
Shape099
100
AcDbCircle
 10
441.85
 20
275
 40
4
  0
CIRCLE
  5
A4A
330
A02
100
AcDbEntity
  8
Shape100
100
AcDbCircle
 10
441.85
 20
245
 40
4
  0
CIRCLE
  5
A4B
330
A02
100
AcDbEntity
  8
Shape101
100
AcDbCircle
 10
441.85
 20
215
 40
4
  0
CIRCLE
  5
A4C
330
A02
100
AcDbEntity
  8
Shape102
100
AcDbCircle
 10
441.85
 20
185
 40
4
  0
CIRCLE
  5
A4D
330
A02
100
AcDbEntity
  8
Shape103
100
AcDbCircle
 10
441.85
 20
155
 40
4
  0
CIRCLE
  5
A4E
330
A02
100
AcDbEntity
  8
Shape104
100
AcDbCircle
 10
441.85
 20
125
 40
4
  0
CIRCLE
  5
A4F
330
A02
100
AcDbEntity
  8
Shape105
100
AcDbCircle
 10
441.85
 20
95
 40
4
  0
CIRCLE
  5
A50
330
A02
100
AcDbEntity
  8
Shape106
100
AcDbCircle
 10
441.85
 20
65
 40
4
  0
CIRCLE
  5
A51
330
A02
100
AcDbEntity
  8
Shape108
100
AcDbCircle
 10
390.85
 20
320
 40
4
  0
CIRCLE
  5
A52
330
A02
100
AcDbEntity
  8
Shape109
100
AcDbCircle
 10
390.85
 20
290
 40
4
  0
CIRCLE
  5
A53
330
A02
100
AcDbEntity
  8
Shape110
100
AcDbCircle
 10
390.85
 20
260
 40
4
  0
CIRCLE
  5
A54
330
A02
100
AcDbEntity
  8
Shape111
100
AcDbCircle
 10
390.85
 20
230
 40
4
  0
CIRCLE
  5
A55
330
A02
100
AcDbEntity
  8
Shape112
100
AcDbCircle
 10
390.85
 20
200
 40
4
  0
CIRCLE
  5
A56
330
A02
100
AcDbEntity
  8
Shape113
100
AcDbCircle
 10
390.85
 20
170
 40
4
  0
CIRCLE
  5
A57
330
A02
100
AcDbEntity
  8
Shape114
100
AcDbCircle
 10
390.85
 20
140
 40
4
  0
CIRCLE
  5
A58
330
A02
100
AcDbEntity
  8
Shape115
100
AcDbCircle
 10
390.85
 20
110
 40
4
  0
CIRCLE
  5
A59
330
A02
100
AcDbEntity
  8
Shape116
100
AcDbCircle
 10
390.85
 20
80
 40
4
  0
CIRCLE
  5
A5A
330
A02
100
AcDbEntity
  8
Shape119
100
AcDbCircle
 10
339.85
 20
305
 40
4
  0
CIRCLE
  5
A5B
330
A02
100
AcDbEntity
  8
Shape120
100
AcDbCircle
 10
339.85
 20
275
 40
4
  0
CIRCLE
  5
A5C
330
A02
100
AcDbEntity
  8
Shape121
100
AcDbCircle
 10
339.85
 20
245
 40
4
  0
CIRCLE
  5
A5D
330
A02
100
AcDbEntity
  8
Shape122
100
AcDbCircle
 10
339.85
 20
215
 40
4
  0
CIRCLE
  5
A5E
330
A02
100
AcDbEntity
  8
Shape123
100
AcDbCircle
 10
339.85
 20
185
 40
4
  0
CIRCLE
  5
A5F
330
A02
100
AcDbEntity
  8
Shape124
100
AcDbCircle
 10
339.85
 20
155
 40
4
  0
CIRCLE
  5
A60
330
A02
100
AcDbEntity
  8
Shape125
100
AcDbCircle
 10
339.85
 20
125
 40
4
  0
CIRCLE
  5
A61
330
A02
100
AcDbEntity
  8
Shape126
100
AcDbCircle
 10
339.85
 20
95
 40
4
  0
CIRCLE
  5
A62
330
A02
100
AcDbEntity
  8
Shape127
100
AcDbCircle
 10
339.85
 20
65
 40
4
  0
CIRCLE
  5
A63
330
A02
100
AcDbEntity
  8
Shape129
100
AcDbCircle
 10
288.85
 20
320
 40
4
  0
CIRCLE
  5
A64
330
A02
100
AcDbEntity
  8
Shape130
100
AcDbCircle
 10
288.85
 20
290
 40
4
  0
CIRCLE
  5
A65
330
A02
100
AcDbEntity
  8
Shape131
100
AcDbCircle
 10
288.85
 20
260
 40
4
  0
CIRCLE
  5
A66
330
A02
100
AcDbEntity
  8
Shape132
100
AcDbCircle
 10
288.85
 20
230
 40
4
  0
CIRCLE
  5
A67
330
A02
100
AcDbEntity
  8
Shape133
100
AcDbCircle
 10
288.85
 20
200
 40
4
  0
CIRCLE
  5
A68
330
A02
100
AcDbEntity
  8
Shape134
100
AcDbCircle
 10
288.85
 20
170
 40
4
  0
CIRCLE
  5
A69
330
A02
100
AcDbEntity
  8
Shape135
100
AcDbCircle
 10
288.85
 20
140
 40
4
  0
CIRCLE
  5
A6A
330
A02
100
AcDbEntity
  8
Shape136
100
AcDbCircle
 10
288.85
 20
110
 40
4
  0
CIRCLE
  5
A6B
330
A02
100
AcDbEntity
  8
Shape137
100
AcDbCircle
 10
288.85
 20
80
 40
4
  0
CIRCLE
  5
A6C
330
A02
100
AcDbEntity
  8
Shape140
100
AcDbCircle
 10
237.85
 20
305
 40
4
  0
CIRCLE
  5
A6D
330
A02
100
AcDbEntity
  8
Shape141
100
AcDbCircle
 10
237.85
 20
275
 40
4
  0
CIRCLE
  5
A6E
330
A02
100
AcDbEntity
  8
Shape142
100
AcDbCircle
 10
237.85
 20
245
 40
4
  0
CIRCLE
  5
A6F
330
A02
100
AcDbEntity
  8
Shape143
100
AcDbCircle
 10
237.85
 20
215
 40
4
  0
CIRCLE
  5
A70
330
A02
100
AcDbEntity
  8
Shape144
100
AcDbCircle
 10
237.85
 20
185
 40
4
  0
CIRCLE
  5
A71
330
A02
100
AcDbEntity
  8
Shape145
100
AcDbCircle
 10
237.85
 20
155
 40
4
  0
CIRCLE
  5
A72
330
A02
100
AcDbEntity
  8
Shape146
100
AcDbCircle
 10
237.85
 20
125
 40
4
  0
CIRCLE
  5
A73
330
A02
100
AcDbEntity
  8
Shape147
100
AcDbCircle
 10
237.85
 20
95
 40
4
  0
CIRCLE
  5
A74
330
A02
100
AcDbEntity
  8
Shape148
100
AcDbCircle
 10
237.85
 20
65
 40
4
  0
CIRCLE
  5
A75
330
A02
100
AcDbEntity
  8
Shape150
100
AcDbCircle
 10
186.85
 20
320
 40
4
  0
CIRCLE
  5
A76
330
A02
100
AcDbEntity
  8
Shape151
100
AcDbCircle
 10
186.85
 20
290
 40
4
  0
CIRCLE
  5
A77
330
A02
100
AcDbEntity
  8
Shape152
100
AcDbCircle
 10
186.85
 20
260
 40
4
  0
CIRCLE
  5
A78
330
A02
100
AcDbEntity
  8
Shape153
100
AcDbCircle
 10
186.85
 20
230
 40
4
  0
CIRCLE
  5
A79
330
A02
100
AcDbEntity
  8
Shape154
100
AcDbCircle
 10
186.85
 20
200
 40
4
  0
CIRCLE
  5
A7A
330
A02
100
AcDbEntity
  8
Shape155
100
AcDbCircle
 10
186.85
 20
170
 40
4
  0
CIRCLE
  5
A7B
330
A02
100
AcDbEntity
  8
Shape156
100
AcDbCircle
 10
186.85
 20
140
 40
4
  0
CIRCLE
  5
A7C
330
A02
100
AcDbEntity
  8
Shape157
100
AcDbCircle
 10
186.85
 20
110
 40
4
  0
CIRCLE
  5
A7D
330
A02
100
AcDbEntity
  8
Shape158
100
AcDbCircle
 10
186.85
 20
80
 40
4
  0
CIRCLE
  5
A7E
330
A02
100
AcDbEntity
  8
Shape161
100
AcDbCircle
 10
135.85
 20
305
 40
4
  0
CIRCLE
  5
A7F
330
A02
100
AcDbEntity
  8
Shape162
100
AcDbCircle
 10
135.85
 20
275
 40
4
  0
CIRCLE
  5
A80
330
A02
100
AcDbEntity
  8
Shape163
100
AcDbCircle
 10
135.85
 20
245
 40
4
  0
CIRCLE
  5
A81
330
A02
100
AcDbEntity
  8
Shape164
100
AcDbCircle
 10
135.85
 20
215
 40
4
  0
CIRCLE
  5
A82
330
A02
100
AcDbEntity
  8
Shape165
100
AcDbCircle
 10
135.85
 20
185
 40
4
  0
CIRCLE
  5
A83
330
A02
100
AcDbEntity
  8
Shape166
100
AcDbCircle
 10
135.85
 20
155
 40
4
  0
CIRCLE
  5
A84
330
A02
100
AcDbEntity
  8
Shape167
100
AcDbCircle
 10
135.85
 20
125
 40
4
  0
CIRCLE
  5
A85
330
A02
100
AcDbEntity
  8
Shape168
100
AcDbCircle
 10
135.85
 20
95
 40
4
  0
CIRCLE
  5
A86
330
A02
100
AcDbEntity
  8
Shape169
100
AcDbCircle
 10
135.85
 20
65
 40
4
  0
CIRCLE
  5
A87
330
A02
100
AcDbEntity
  8
Shape171
100
AcDbCircle
 10
84.85
 20
320
 40
4
  0
CIRCLE
  5
A88
330
A02
100
AcDbEntity
  8
Shape172
100
AcDbCircle
 10
84.85
 20
290
 40
4
  0
CIRCLE
  5
A89
330
A02
100
AcDbEntity
  8
Shape173
100
AcDbCircle
 10
84.85
 20
260
 40
4
  0
CIRCLE
  5
A8A
330
A02
100
AcDbEntity
  8
Shape174
100
AcDbCircle
 10
84.85
 20
230
 40
4
  0
CIRCLE
  5
A8B
330
A02
100
AcDbEntity
  8
Shape175
100
AcDbCircle
 10
84.85
 20
200
 40
4
  0
CIRCLE
  5
A8C
330
A02
100
AcDbEntity
  8
Shape176
100
AcDbCircle
 10
84.85
 20
170
 40
4
  0
CIRCLE
  5
A8D
330
A02
100
AcDbEntity
  8
Shape177
100
AcDbCircle
 10
84.85
 20
140
 40
4
  0
CIRCLE
  5
A8E
330
A02
100
AcDbEntity
  8
Shape178
100
AcDbCircle
 10
84.85
 20
110
 40
4
  0
CIRCLE
  5
A8F
330
A02
100
AcDbEntity
  8
Shape179
100
AcDbCircle
 10
84.85
 20
80
 40
4
  0
CIRCLE
  5
A90
330
A02
100
AcDbEntity
  8
Shape182
100
AcDbCircle
 10
33.85
 20
305
 40
4
  0
CIRCLE
  5
A91
330
A02
100
AcDbEntity
  8
Shape183
100
AcDbCircle
 10
33.85
 20
275
 40
4
  0
CIRCLE
  5
A92
330
A02
100
AcDbEntity
  8
Shape184
100
AcDbCircle
 10
33.85
 20
245
 40
4
  0
CIRCLE
  5
A93
330
A02
100
AcDbEntity
  8
Shape185
100
AcDbCircle
 10
33.85
 20
215
 40
4
  0
CIRCLE
  5
A94
330
A02
100
AcDbEntity
  8
Shape186
100
AcDbCircle
 10
33.85
 20
185
 40
4
  0
CIRCLE
  5
A95
330
A02
100
AcDbEntity
  8
Shape187
100
AcDbCircle
 10
33.85
 20
155
 40
4
  0
CIRCLE
  5
A96
330
A02
100
AcDbEntity
  8
Shape188
100
AcDbCircle
 10
33.85
 20
125
 40
4
  0
CIRCLE
  5
A97
330
A02
100
AcDbEntity
  8
Shape189
100
AcDbCircle
 10
33.85
 20
95
 40
4
  0
CIRCLE
  5
A98
330
A02
100
AcDbEntity
  8
Shape190
100
AcDbCircle
 10
33.85
 20
65
 40
4
  0
LINE
  5
A99
330
A02
100
AcDbEntity
  8
Shape192
100
AcDbLine
 10
1124.7
 20
365
 30
0
 11
1124.7
 21
0
 31
0
  0
LINE
  5
A9A
330
A02
100
AcDbEntity
  8
Line
100
AcDbLine
 10
934.7
 20
365
 30
0
 11
1124.7
 21
365
 31
0
  0
LINE
  5
A9B
330
A02
100
AcDbEntity
  8
Line001
100
AcDbLine
 10
934.7
 20
0
 30
0
 11
1124.7
 21
0
 31
0
  0
CIRCLE
  5
A9C
330
A02
100
AcDbEntity
  8
Shape195
100
AcDbCircle
 10
900.85
 20
260
 40
4
  0
CIRCLE
  5
A9D
330
A02
100
AcDbEntity
  8
Shape196
100
AcDbCircle
 10
900.85
 20
230
 40
4
  0
CIRCLE
  5
A9E
330
A02
100
AcDbEntity
  8
Shape198
100
AcDbCircle
 10
900.85
 20
170
 40
4
  0
CIRCLE
  5
A9F
330
A02
100
AcDbEntity
  8
Shape199
100
AcDbCircle
 10
900.85
 20
140
 40
4
  0
CIRCLE
  5
AA0
330
A02
100
AcDbEntity
  8
Shape200
100
AcDbCircle
 10
900.85
 20
110
 40
4
  0
CIRCLE
  5
AA1
330
A02
100
AcDbEntity
  8
Shape212
100
AcDbCircle
 10
849.85
 20
65
 40
4
  0
CIRCLE
  5
AA2
330
A02
100
AcDbEntity
  8
Shape214
100
AcDbCircle
 10
900.85
 20
290
 40
4
  0
CIRCLE
  5
AA3
330
A02
100
AcDbEntity
  8
Shape215
100
AcDbCircle
 10
900.85
 20
260
 40
4
  0
CIRCLE
  5
AA4
330
A02
100
AcDbEntity
  8
Shape216
100
AcDbCircle
 10
900.85
 20
230
 40
4
  0
CIRCLE
  5
AA5
330
A02
100
AcDbEntity
  8
Shape217
100
AcDbCircle
 10
900.85
 20
200
 40
4
  0
CIRCLE
  5
AA6
330
A02
100
AcDbEntity
  8
Shape218
100
AcDbCircle
 10
900.85
 20
170
 40
4
  0
CIRCLE
  5
AA7
330
A02
100
AcDbEntity
  8
Shape219
100
AcDbCircle
 10
900.85
 20
140
 40
4
  0
CIRCLE
  5
AA8
330
A02
100
AcDbEntity
  8
Shape220
100
AcDbCircle
 10
900.85
 20
110
 40
4
  0
CIRCLE
  5
AA9
330
A02
100
AcDbEntity
  8
Shape221
100
AcDbCircle
 10
900.85
 20
80
 40
4
  0
CIRCLE
  5
AAA
330
A02
100
AcDbEntity
  8
Shape225
100
AcDbCircle
 10
849.85
 20
275
 40
4
  0
CIRCLE
  5
AAB
330
A02
100
AcDbEntity
  8
Shape226
100
AcDbCircle
 10
849.85
 20
245
 40
4
  0
CIRCLE
  5
AAC
330
A02
100
AcDbEntity
  8
Shape227
100
AcDbCircle
 10
849.85
 20
215
 40
4
  0
CIRCLE
  5
AAD
330
A02
100
AcDbEntity
  8
Shape228
100
AcDbCircle
 10
849.85
 20
185
 40
4
  0
CIRCLE
  5
AAE
330
A02
100
AcDbEntity
  8
Shape229
100
AcDbCircle
 10
849.85
 20
155
 40
4
  0
CIRCLE
  5
AAF
330
A02
100
AcDbEntity
  8
Shape230
100
AcDbCircle
 10
849.85
 20
125
 40
4
  0
CIRCLE
  5
AB0
330
A02
100
AcDbEntity
  8
Shape231
100
AcDbCircle
 10
849.85
 20
95
 40
4
  0
CIRCLE
  5
AB1
330
A02
100
AcDbEntity
  8
Shape232
100
AcDbCircle
 10
849.85
 20
65
 40
4
  0
CIRCLE
  5
AB2
330
A02
100
AcDbEntity
  8
Shape233
100
AcDbCircle
 10
1002.85
 20
320
 40
4
  0
CIRCLE
  5
AB3
330
A02
100
AcDbEntity
  8
Shape234
100
AcDbCircle
 10
1002.85
 20
290
 40
4
  0
CIRCLE
  5
AB4
330
A02
100
AcDbEntity
  8
Shape235
100
AcDbCircle
 10
1002.85
 20
260
 40
4
  0
CIRCLE
  5
AB5
330
A02
100
AcDbEntity
  8
Shape236
100
AcDbCircle
 10
1002.85
 20
230
 40
4
  0
CIRCLE
  5
AB6
330
A02
100
AcDbEntity
  8
Shape237
100
AcDbCircle
 10
1002.85
 20
200
 40
4
  0
CIRCLE
  5
AB7
330
A02
100
AcDbEntity
  8
Shape238
100
AcDbCircle
 10
1002.85
 20
170
 40
4
  0
CIRCLE
  5
AB8
330
A02
100
AcDbEntity
  8
Shape239
100
AcDbCircle
 10
1002.85
 20
140
 40
4
  0
CIRCLE
  5
AB9
330
A02
100
AcDbEntity
  8
Shape240
100
AcDbCircle
 10
1002.85
 20
110
 40
4
  0
CIRCLE
  5
ABA
330
A02
100
AcDbEntity
  8
Shape241
100
AcDbCircle
 10
1002.85
 20
80
 40
4
  0
CIRCLE
  5
ABB
330
A02
100
AcDbEntity
  8
Shape245
100
AcDbCircle
 10
951.85
 20
275
 40
4
  0
CIRCLE
  5
ABC
330
A02
100
AcDbEntity
  8
Shape246
100
AcDbCircle
 10
951.85
 20
245
 40
4
  0
CIRCLE
  5
ABD
330
A02
100
AcDbEntity
  8
Shape247
100
AcDbCircle
 10
951.85
 20
215
 40
4
  0
CIRCLE
  5
ABE
330
A02
100
AcDbEntity
  8
Shape248
100
AcDbCircle
 10
951.85
 20
185
 40
4
  0
CIRCLE
  5
ABF
330
A02
100
AcDbEntity
  8
Shape249
100
AcDbCircle
 10
951.85
 20
155
 40
4
  0
CIRCLE
  5
AC0
330
A02
100
AcDbEntity
  8
Shape250
100
AcDbCircle
 10
951.85
 20
125
 40
4
  0
CIRCLE
  5
AC1
330
A02
100
AcDbEntity
  8
Shape251
100
AcDbCircle
 10
951.85
 20
95
 40
4
  0
CIRCLE
  5
AC2
330
A02
100
AcDbEntity
  8
Shape252
100
AcDbCircle
 10
951.85
 20
65
 40
4
  0
CIRCLE
  5
AC3
330
A02
100
AcDbEntity
  8
Shape253
100
AcDbCircle
 10
1104.85
 20
320
 40
4
  0
CIRCLE
  5
AC4
330
A02
100
AcDbEntity
  8
Shape254
100
AcDbCircle
 10
1104.85
 20
290
 40
4
  0
CIRCLE
  5
AC5
330
A02
100
AcDbEntity
  8
Shape255
100
AcDbCircle
 10
1104.85
 20
260
 40
4
  0
CIRCLE
  5
AC6
330
A02
100
AcDbEntity
  8
Shape256
100
AcDbCircle
 10
1104.85
 20
230
 40
4
  0
CIRCLE
  5
AC7
330
A02
100
AcDbEntity
  8
Shape257
100
AcDbCircle
 10
1104.85
 20
200
 40
4
  0
CIRCLE
  5
AC8
330
A02
100
AcDbEntity
  8
Shape258
100
AcDbCircle
 10
1104.85
 20
170
 40
4
  0
CIRCLE
  5
AC9
330
A02
100
AcDbEntity
  8
Shape259
100
AcDbCircle
 10
1104.85
 20
140
 40
4
  0
CIRCLE
  5
ACA
330
A02
100
AcDbEntity
  8
Shape260
100
AcDbCircle
 10
1104.85
 20
110
 40
4
  0
CIRCLE
  5
ACB
330
A02
100
AcDbEntity
  8
Shape261
100
AcDbCircle
 10
1104.85
 20
80
 40
4
  0
CIRCLE
  5
ACC
330
A02
100
AcDbEntity
  8
Shape264
100
AcDbCircle
 10
1053.85
 20
305
 40
4
  0
CIRCLE
  5
ACD
330
A02
100
AcDbEntity
  8
Shape265
100
AcDbCircle
 10
1053.85
 20
275
 40
4
  0
CIRCLE
  5
ACE
330
A02
100
AcDbEntity
  8
Shape266
100
AcDbCircle
 10
1053.85
 20
245
 40
4
  0
CIRCLE
  5
ACF
330
A02
100
AcDbEntity
  8
Shape267
100
AcDbCircle
 10
1053.85
 20
215
 40
4
  0
CIRCLE
  5
AD0
330
A02
100
AcDbEntity
  8
Shape268
100
AcDbCircle
 10
1053.85
 20
185
 40
4
  0
CIRCLE
  5
AD1
330
A02
100
AcDbEntity
  8
Shape269
100
AcDbCircle
 10
1053.85
 20
155
 40
4
  0
CIRCLE
  5
AD2
330
A02
100
AcDbEntity
  8
Shape270
100
AcDbCircle
 10
1053.85
 20
125
 40
4
  0
CIRCLE
  5
AD3
330
A02
100
AcDbEntity
  8
Shape271
100
AcDbCircle
 10
1053.85
 20
95
 40
4
  0
CIRCLE
  5
AD4
330
A02
100
AcDbEntity
  8
Shape272
100
AcDbCircle
 10
1053.85
 20
65
 40
4
  0
CIRCLE
  5
AD5
330
A02
100
AcDbEntity
  8
Shape224
100
AcDbCircle
 10
849.85
 20
305
 40
4
  0
CIRCLE
  5
AD6
330
A02
100
AcDbEntity
  8
Shape024
100
AcDbCircle
 10
798.85
 20
320
 40
4
  0
CIRCLE
  5
AD7
330
A02
100
AcDbEntity
  8
Shape025
100
AcDbCircle
 10
798.85
 20
290
 40
4
  0
CIRCLE
  5
AD8
330
A02
100
AcDbEntity
  8
Shape244
100
AcDbCircle
 10
951.85
 20
305
 40
4
  0
CIRCLE
  5
AD9
330
A02
100
AcDbEntity
  8
Shape213
100
AcDbCircle
 10
900.85
 20
320
 40
4
  0
ENDSEC
  0
SECTION
  2
OBJECTS
  0
DICTIONARY
  5
F000
330
0
100
AcDbDictionary
  3
ACAD_GROUP
350
F001
  0
DICTIONARY
  5
F001
330
F000
100
AcDbDictionary
  0
ENDSEC
  0
EOF